Go back to 96 Tears!
What's New? Band Biography and History Band Personnel and Discography
Discs, Records, and Reviews The Availability Factor Hear the Music Now
Lyrics and Music My Interview with ? Article Archive
 
 
Please scroll down to see another set of tabs for the song, I've tried to include all versions I can find.


96 Tears
? & The Mysterians
(Rudy Martinez)


Riff 1:

v   v    v   v   v   v 
--------|----------------|
--------|----------------|
--0-3-5-|7---7---5-3-0---|
--------|----------------|
--------|----------------|
--------|----------------|

Riff 2:

G		 Eb
v   v   v   v    v   v   v   v
----------------|----------------|
----------------|----------------|
4-4-4-4-4-4-4-4-|3-3-3-3-3-3-3-3-|
5-5-5-5-5-5-5-5-|5-5-5-5-5-5-5-5-|
----------------|----------------|
----------------|----------------|
^^^^
omit these 2 notes first time

Riff 3:

G		Eb
v   v   v   v    v   v   v   v
----------------|----------------|
----------------|----------------|
0-----0-------0-|----0-------0---|
--0-2-----0-2---|1-2---1---2-----|
----------------|----------------|
----------------|----------------|




Riff 1
Riff 2
Riff 2
Riff 3
Riff 3
Riff 2
Riff 2
Riff 2
Riff 2
Riff 3
Riff 3
Riff 2
Riff 2
Riff 2
Riff 2
Riff 3
Riff 3
Riff 2
Riff 2
Riff 2
Riff 2

--------------------------------------------------

(no riffs)
Em
//// //// //// //// //// //// //// //// //// ////
(Em)           C
//// //// //// ////

--------------------------------------------------

Riff 2
Riff 2 (w/ first bar 2x)
Riff 2
Riff 3
Riff 3
Riff 2
Riff 2
Riff 2
Riff 2
Riff 3
Riff 3
Riff 2
Riff 2
Riff 2
Riff 3 (repeat riff and fade)

96 Tears
(Rudy  Martinez)
? & The Mysterians

Capo at 12th fret for best results.

Here are the organ riffs that make up the song (chords are implied):

riff 1:

[N.C.]
v   v    v   v   v   v 
--------|----------------|
------1-|/3--/3--1-------|
--0-3---|----------3-0---|
--------|----------------|
--------|----------------|
--------|----------------|

riff 2:

(G) (Eb)
v   v   v   v    v   v   v   v
----------------|----------------|
----------------|----------------|
4-4-4-4-4-4-4-4-|3-3-3-3-3-3-3-3-|
5-5-5-5-5-5-5-5-|5-5-5-5-5-5-5-5-|
----------------|----------------|
----------------|----------------|

riff 3:

(G) (Eb)
v   v   v   v    v   v   v   v
----------------|----------------|
----------------|----------------|
0-----0-------0-|----0-------0---|
--0-2-----0-2---|1-2---1---2-----|
----------------|----------------|
----------------|----------------|

Here is the bass riff which underlines the bridge (during the Em chord only)=
:

Em
v   v   v   v
----------------|
------0---------|
--------2-0-----|
0-----------3-2-|

=3D=3D=3D=3D=3D=3D=3D=3D=3D=3D=3D=3D=3D=3D=3D=3D=3D=3D=3D=3D=3D=3D=3D=3D=3D=
=3D=3D=3D=3D=3D=3D=3D=3D=3D=3D=3D=3D=3D=3D=3D=3D=3D=3D=3D=3D=3D=3D=3D=3D=3D=
=3D=3D=3D=3D=3D=3D=3D=3D=3D=3D=3D=3D=3D=3D=3D=3D=3D=3D=3D=3D=3D=3D=3D=3D

Structure:
(Note: If you can't figure out where each section starts
and ends, just ignore where it says intro, verse 1, ect.)

Intro:

Riff 1
Riff 2 <-omit first two notes this time only!
Riff 2

Verse 1:

Riff 3
Riff 3
Riff 2
Riff 2
Riff 2
Riff 2

Verse 2:

Riff 3
Riff 3
Riff 2
Riff 2
Riff 2
Riff 2

Verse 3:

Riff 3
Riff 3
Riff 2
Riff 2
Riff 2
Riff 2

Bridge (organ and guitar plays chords):

Em
//// //// //// //// //// //// //// //// //// ////
(Em)           C
//// //// //// ////

Link:

Riff 2
Riff 2 (w/ first bar 2x)
Riff 2

Verse 4:

Riff 3
Riff 3
Riff 2
Riff 2
Riff 2
Riff 2

Coda:

Riff 3
Riff 3
Riff 2
Riff 2
Riff 2
Riff 3 (repeat riff and fade)